Stooges Forum

Welcome to the Fun House
 
HomeHome  FAQFAQ  RegisterRegister  Log in  

Share | 
 

 The Stooges/Iggy Pop bass tabs

View previous topic View next topic Go down 
AuthorMessage
imastooge69



Number of posts : 43
Age : 20
Registration date : 2011-10-30

PostSubject: The Stooges/Iggy Pop bass tabs   Fri Aug 03, 2012 5:54 am

Please tell what kind of bass (either 4 string or 6 string/w/ frets or fretless) and just simply post the tabs for it. Easy as that!
For example, I'll post Iggy's "Sister Midnight" (for 4 strings)

First, play this:
G|-----------------|-----------------|
D|-----------------|-----------------|
A|-----------------|-----------------|
E|-3~--------------|-5~--------------|


Then the rest of the song goes like this:
G|-----------------|---------2-4-----|
D|-----------------|-------------3-5-|
A|-----------------|-----------------|
E|-3---331-3-------|-3---331---------|


Sometimes you skip that little fill and just play this:
G|-----------------|-----------------|
D|-----------------|-----------------|
A|-----------------|-----------------|
E|-3---331-3-------|-3---331-3-------|

And that's pretty much it.

Back to top Go down
imastooge69



Number of posts : 43
Age : 20
Registration date : 2011-10-30

PostSubject: I Wanna Be Your Dog (4 strings)   Fri Aug 03, 2012 5:56 am

Intro (leads straight to verse)
G-----------------------------------------------
D-----------------------------------------------
A---------------------7-7-7-7-7-7-7-7-------
EŚ0-0-0-0-0-0-0----------------------------

Verse
G----------------------------------------------
D----------------------------------------------
AŚ10-10-10-10-9-9-9-9-7-7-7-7-7-7--
E----------------------------------------------

Chorus (now I wanna be your dog) x 3
G---------------------------------------------
D---------------------------------------------
AŚ10-10-10-10-9-9-9-9-9-9-9-7-7-7-
E---------------------------------------------

Then:
G--------------------------------------------------------------------
D--------------------------------------------------------------------
AŚ10-10-10-7-7-7-------------------------------7-(X 15)-----
E-----------------------10-10-10-7-7-7-8-( X 19)---------------

Back to top Go down
 
The Stooges/Iggy Pop bass tabs
View previous topic View next topic Back to top 
Page 1 of 1
 Similar topics
-
» [request] Harukaze bass tabs (full)
» Queens are Trumps Bass Tabs?
» ???? Kagen no Tsuki [Bass Tabs]
» Maboroshi Night Bass tabs
» Shunkan Sentimental Bass tab

Permissions in this forum:You cannot reply to topics in this forum
Stooges Forum :: Stooges Main. :: Jesus Loves the Stooges.-
Jump to: