Stooges Forum

Welcome to the Fun House
 
HomeHome  FAQFAQ  RegisterRegister  Log in  

Share | 
 

 Iggy Pop/The Stooges Tab and Lyric Request Thread

View previous topic View next topic Go down 
Go to page : Previous  1, 2, 3 ... , 10, 11, 12  Next
AuthorMessage
SimonJ

avatar

Number of posts : 29
Location : Sweden
Registration date : 2011-01-15

PostSubject: Re: Iggy Pop/The Stooges Tab and Lyric Request Thread   Sun Apr 10, 2011 5:32 pm

Does anyone have the lyrics to Dead Body?
Back to top Go down
It's In My Pocket

avatar

Number of posts : 1
Age : 25
Location : Northwest
Registration date : 2011-04-14

PostSubject: Re: Iggy Pop/The Stooges Tab and Lyric Request Thread   Thu Apr 14, 2011 11:21 am

Hey, does anybody have the lyrics to "Mexican Guy" of their newest album? Here's what I've worked out but a lot of it is just plain guessing:

Lookin' To My Left I See A...
Lookin' To My Right See...
I Took A Look Below I Saw A Fat King Kong
I Took A Look Above But I Fell Out As I Belong
?????...take A Dive
Started Out On Marijuana
Ended Up On Red Wine
Gotta Fuck Her Everyday Just To Feel Alive
Sentimental ???enal Fallin' By The Wayside


The Brain Police Are Watching My Back
My Sanity Is Under Attack
I've Got A Crazy Look In My Eye
Since My Girl Ran Off With A Mexican Guy


Maybe I Should Swallow A Little Pill
Maybe I Should Listen To Dr. Phil
Modern Life Could Certainly Make One Ill


Ron


I've Been Sitting Corner Of Hollywood And Vine
Where I Saw Scareface In Seventy-five
I Saw Chuck Berry And Gone With The Wind
He Had A Little Whitey Snugglin' Up To Him
The Street Was Kind Of Dirty But The Street Had Soul
Saw Bobby Boy Drinking To The Monster Mash Show
I Saw Frank Zappa Eat A Lonely Hot Dog
Heard Wild Thing Played By The Troggs


The Brain Police Are Watching My Back
My Sanity Is Under Attack
I've Got A Crazy Look In My Eye
Since My Girl Ran Off With A Mexican Guy


Maybe I Should Swallow A Little Pill
Maybe I Should Listen To Dr. Phil
Modern Life Could Certainly Make One Ill
Ill


Now The Brain Police Are Watching My Back
My Sanity Is Under Attack
I've Got A Crazy Look In My Eye
Since My Girl Ran Off With A Mexican Guy
With A Mexican Guy...
Back to top Go down
stooges

avatar

Number of posts : 628
Age : 23
Location : CZ
Registration date : 2009-05-16

PostSubject: Re: Iggy Pop/The Stooges Tab and Lyric Request Thread   Sun May 22, 2011 10:05 pm

Lyrics for loose take 2 and 22 ?
Back to top Go down
GrOb

avatar

Number of posts : 1
Location : MD
Registration date : 2011-06-27

PostSubject: Re: Iggy Pop/The Stooges Tab and Lyric Request Thread   Mon Jun 27, 2011 7:49 pm

Help me please! I can't find nowhere lyrics for "She took my money", "Passing cloud" (from "The Werdness") and "Nervous Exhausting" (Bonus from "Skull Ring"). Neutral
Back to top Go down
blackout88

avatar

Number of posts : 66
Location : Glasgow, Scotland
Registration date : 2009-04-20

PostSubject: Re: Iggy Pop/The Stooges Tab and Lyric Request Thread   Mon Aug 29, 2011 1:18 am

Very tentative lyrics to 'Big Time Bum' and taken from disc 4, the only disc with somewhat audible lyrics for this particular song. While the music sounds developed and tight, the lyrics sound like a work in process.


'Big Time Bum'



Ah 1,2,3,4!


Verse 1

We’re staying in the south right now, and if you remember
We’re staying with just our mind, and it’s by September

Pretty young and living fast, and you’ll see it all son
Pretty young and living fast, you’re just playing all the fun

In your arms baby
And you’re alright
In your arms baby


Chorus


All right


Verse 2

Do you believe just what I say, you see in our eyes
Gonna live to a hundred ‘n ten, wanna live before I die

They say it’s the way I’m made, they’re all wrong
Can’t believe in what I’ve seen, they’re all wrong

Gonna live before I die, they’re living wrong
Gonna live until I die


Chorus

Living wrong


Verse 3


This time before I die, and I remember
Before I die, I can take it
(inaudible), And I call the love
They’ll have no one left, having all the fun
And before I die, and you know I’m wrong
Doesn’t make it right


Chorus


You know I’m wrong
And I know I’m wrong


Outro


And you know I’m wrong x 8
Back to top Go down
http://unwantedfriends.blogspot.com/
coldbloodcrawling



Number of posts : 7
Registration date : 2011-10-25

PostSubject: Re: Iggy Pop/The Stooges Tab and Lyric Request Thread   Tue Oct 25, 2011 3:19 am

Anyone got lyircs to "sell your love" off the kill city album?
Back to top Go down
jpstooges

avatar

Number of posts : 239
Age : 46
Location : France
Registration date : 2009-06-07

PostSubject: Re: Iggy Pop/The Stooges Tab and Lyric Request Thread   Tue Oct 25, 2011 10:07 am

coldbloodcrawling wrote:
Anyone got lyircs to "sell your love" off the kill city album?
http://stoogesforum.freeforumboard.net/t2946-kill-city-lyrics?highlight=lyrics
Back to top Go down
coldbloodcrawling



Number of posts : 7
Registration date : 2011-10-25

PostSubject: Re: Iggy Pop/The Stooges Tab and Lyric Request Thread   Wed Oct 26, 2011 6:57 pm

ah fucking nice one. hard to hear off the recording. love iggys voice on that one
Back to top Go down
fabrice



Number of posts : 222
Registration date : 2011-08-02

PostSubject: Re: Iggy Pop/The Stooges Tab and Lyric Request Thread   Thu Oct 27, 2011 12:30 pm

beautiful song , crazy lyrics , would make such a welcome addition to the raw power tour !
would also slow down the pace and allow everyone to catch one's breath...hey why not ?

regards to all
Back to top Go down
dr_



Number of posts : 10
Registration date : 2012-03-03

PostSubject: Re: Iggy Pop/The Stooges Tab and Lyric Request Thread   Wed Apr 04, 2012 8:35 pm

Hi guys! Is anybody have tabs for some "The Weirdness" album's songs?

Also, I looking for "Fun House' (song) tabs.
I know that main riff is like this:
E----------------------------------------
B----------------------------------------
G----------------------------------------
D-----------9----------9-8-7-5---------
A--7--7--7----7--7--7------------------
E-----------------------------------------
but there are some improvisation or other things in song. May be somebody know it.
Back to top Go down
mojo_9_iggy



Number of posts : 6
Location : O' Mind, Portugal
Registration date : 2012-03-15

PostSubject: Re: Iggy Pop/The Stooges Tab and Lyric Request Thread   Sat Apr 28, 2012 5:59 am

Doojiman


E------------------------------------------
B------------------------------------------
G------------------------------------------
D--------------------------------------2----
A-7--5---------------------------------2-----
E---------7----5-----0----3-----5-----0-----



New Order/Empty Set - Lucky Strike


E------------------------------------------
B------------------------------------------
G---------7--------5-----2----0----2------------7----------5--------2------0------------------------
D---------7--------5-----2----0----2------------7----------5--------2------0-------------------------
A--0--0------0------------------------------0----------0--------------------------------------------- palm mute (every note on this string)
E------------------------------------------




Sonic rendezvous band- City Slang






E-------------------------------------------------------------------------------------------
B------------------------------------------------------------------------------------------
G------------6---------------------7---------------------6------5-----------------------
D---5---7---6----------5----7----7--------5-----7-----6-------5------7-----5-----7---
A---5---7---8----------5----7----5--------5-----7-----8-------7------7-----5-----7-----
E---3---5--------------3----5--------------3-----5---------------------5-----3-----5------


Maybe post later the one to "Cock in my pocket" I'm a lazy ass lol!
Back to top Go down
dr_



Number of posts : 10
Registration date : 2012-03-03

PostSubject: Re: Iggy Pop/The Stooges Tab and Lyric Request Thread   Mon May 21, 2012 6:11 pm

My Idea of Fun

Intro:
e-------------------------------------------------------------------------------------------
B-------------------0-----------------------------------------------------------------------
G-----0------0-----2---------------------------------------------------------------------------
D-----2------0-----2--------------------------------------------------------------------------
A-----2------2-----0---------------------------------------------------------------------------
E-----0------3-------------------------------------------------------------------------------

after intro part slide from E5 to D5 or lower

Main Riff (verse and chorus):
G5-F#5-E5-D5
G5-F#5-E5-D5/E5

"Now is the season" and "My Idea" after 2nd chorus and solo parts:
E5-G5-A5

G5-F#5-E5-D5/E5
My idea of fun

Solo:
E5-F#5-G5 x3
E5-F#5-G5-A5-B5-C5-D5
_______
all bar chords plays on 5, 4 and 3 strings.

I think, that this is right, but I'm not sure

P.S. Sorry for my English, I learned it only in school. I think that I have some problems with English grammar and other things, but I hope that you understand me.
Back to top Go down
ChuckN

avatar

Number of posts : 310
Age : 39
Location : Norway
Registration date : 2009-10-29

PostSubject: Re: Iggy Pop/The Stooges Tab and Lyric Request Thread   Thu May 24, 2012 2:50 pm

Tv Eye(for dr_)


B=Bend down, then bend up, back to starting-point for string(listen to the record and you can perfect the bending)

Verse:

E----------------------------------------
B----------------------------------------
G-------------5------B7--5------5-------------
D--7--7--7------7-----------7------7--
A--0--0--0------0-----------0------0---
E-----------------------------------------


Bridge:

P=Palm Mute

E--------------------------------------------------------------------
B--------------------------------------------------------------------
G--------------------------------------------------------------------
D--5--P7(repeat x-times)---5--P7(repeat x-times)---5---7--
A--0--P0(-"-)-----------------0--P0(-"-)------------------0---0--
E---------------------------------------------------------------------


Refr:

E-----------------------------------------------------------------------
B----------------------------------------------------------------------
G-------------5-----5-----5----------------5------7-------x2---------
D--7--7--7-----7-----7---------7--7--7------7-----------x2-------- Then go to bridge
A--0--0--0-----0-----0---------0--0--0------0-----------x2------
E----------------------------------------------------------------------

Not 100% sure of the refrain, as I haven played that part for a long time.
Listen to the record, and you'll get the hang of it easily.
Back to top Go down
dr_



Number of posts : 10
Registration date : 2012-03-03

PostSubject: Re: Iggy Pop/The Stooges Tab and Lyric Request Thread   Thu May 24, 2012 4:06 pm

ChuckN, why for me? )
I didn't ask tabs for all songs from "Fun House" album. I'm only asked tabs for songs from "Weirdness" album and tabs for Fun House song
Back to top Go down
ChuckN

avatar

Number of posts : 310
Age : 39
Location : Norway
Registration date : 2009-10-29

PostSubject: Re: Iggy Pop/The Stooges Tab and Lyric Request Thread   Thu May 24, 2012 5:22 pm

Oops
Nice to have it covered anyway.
Back to top Go down
dr_



Number of posts : 10
Registration date : 2012-03-03

PostSubject: Re: Iggy Pop/The Stooges Tab and Lyric Request Thread   Thu May 24, 2012 7:03 pm

I think, that this is more correct TV Eye tab:

Verse:
e---------------------------------------------------
B---------------------------------------------------
G-------------5-----5--B7---5-----5--------------
D--7--7--7------7--------------7-------7--7--5--
A--0--0--0------0--------------0-------0--0------
E---------------------------------------------------

Chorus:
e----------------------------------------------------
B---------------------------------------------------
G-------------5---------5----------5------------------
D--7--7--7-------7--7------7--7------7--7--5---------
A--0--0--0-------0--0------0--0------0--0----------
E------------------------------------------------------

Pre-Solo after chorus
e------
B-----
G------
D--7-- X-times
A--0--
E-----

Bridge is Pulm Muting A5 chord (A5(PM))
Don't use PM, when Iggy screams "Right on" or something else. Smile
What he screams in original record? I can't understand it, but lyric in Internet say, that this is "Right on".
Back to top Go down
ChuckN

avatar

Number of posts : 310
Age : 39
Location : Norway
Registration date : 2009-10-29

PostSubject: Re: Iggy Pop/The Stooges Tab and Lyric Request Thread   Tue Jun 05, 2012 12:07 pm

Agree. That tab of Tv-Eye sound right. Smile
Back to top Go down
rabid_fish

avatar

Number of posts : 166
Registration date : 2009-09-19

PostSubject: Re: Iggy Pop/The Stooges Tab and Lyric Request Thread   Thu Jun 07, 2012 3:58 am

does anybody know the chords of "rock n' roll party"???

Back to top Go down
mojo_9_iggy



Number of posts : 6
Location : O' Mind, Portugal
Registration date : 2012-03-15

PostSubject: Re: Iggy Pop/The Stooges Tab and Lyric Request Thread   Wed Jul 04, 2012 1:11 pm

rabid_fish wrote:
does anybody know the chords of "rock n' roll party"???


intro:

D---4--2h4p2-------4--2
A---------------4---------
E-2----------------2------



Then you have to strum with palm mute and downtrokes the rythm that goes a little like this:

D-4 7 7 4
A-4 7 7 4 Each chord 8x
E-2 5 9 2



Then is something like this

G----------4b-p2---------4---4b-p2---
D-2--2------------4------4-------------4
A-2--2--------------------2-------------
B-4--4-----------------------------------


It has some innacuracies but I've tabbed by ear later i may correct them, I may also tab the solo.
Back to top Go down
dazed



Number of posts : 1
Registration date : 2012-07-07

PostSubject: Re: Iggy Pop/The Stooges Tab and Lyric Request Thread   Sat Jul 07, 2012 8:06 am

Does anyone have tabs (guitar and bass) for Kill City?
Back to top Go down
imastooge69



Number of posts : 43
Age : 20
Registration date : 2011-10-30

PostSubject: Bass Tabs for Turn Blue and Sister Midnight (for 4 strings)   Thu Jul 26, 2012 3:38 pm

I've learned 'I Wanna Be Your Dog', and the riffs to 'Little Doll' and 'Dirt', and I would like to learn one of my favorite Iggy songs, but the problem is I have trouble finding bass tabs for it and I am a beginner at bass...
Back to top Go down
imastooge69



Number of posts : 43
Age : 20
Registration date : 2011-10-30

PostSubject: Kill City bass tab (4 Strings)   Thu Jul 26, 2012 3:45 pm

I have a 4 string bass (and I am not that great at it). I'd appreciate it if someone would post a bass tab...
Back to top Go down
rabid_fish

avatar

Number of posts : 166
Registration date : 2009-09-19

PostSubject: Re: Iggy Pop/The Stooges Tab and Lyric Request Thread   Fri Jul 27, 2012 7:19 pm

i play bass... which do you wanna know? i know more or less all bass lines from "the stooges" and "funhouse". they're very easy, perfect for a begginer!
Back to top Go down
imastooge69



Number of posts : 43
Age : 20
Registration date : 2011-10-30

PostSubject: Re: Iggy Pop/The Stooges Tab and Lyric Request Thread   Sun Jul 29, 2012 7:39 pm

rabid_fish wrote:
i play bass... which do you wanna know? i know more or less all bass lines from "the stooges" and "funhouse". they're very easy, perfect for a begginer!
Do you know the bassline to 1970? Also, I got to ask, do you know the bass line to Turn Blue, as i have difficulty finding a site that has it....
Back to top Go down
rabid_fish

avatar

Number of posts : 166
Registration date : 2009-09-19

PostSubject: Re: Iggy Pop/The Stooges Tab and Lyric Request Thread   Tue Jul 31, 2012 5:38 am

imastooge69 wrote:
rabid_fish wrote:
i play bass... which do you wanna know? i know more or less all bass lines from "the stooges" and "funhouse". they're very easy, perfect for a begginer!
Do you know the bassline to 1970? Also, I got to ask, do you know the bass line to Turn Blue, as i have difficulty finding a site that has it....

it's E then G... you can play like this:

G-------------------------
D-----5-5--5--5------5-5
A----7----7--7---7-7----
E-------------------------

or


E---0-3-3--0--3--0--3--0-0-3-3 if you want it an 8ve lower

the "all night... til i blow away" would be C, D and the riff X2 then E, D-C-D then B,C,D and then B,C,E... it's something like this: ( I don't do the other strings 'cos you don't really use them)


A-3-3-3-3-3-3--5-5-5-5-5-5 then Riff X2

the "bridge" (?)

A-7--5-3-5--2-3-5--2-3-- Then riff again...

then the end with the sax solo it's 2-3-7-7-7-7-7 till the end. in the guitar solo there's a part where the bass plays a D, but i'm not exactly sure where.

Hope that works for you, i know how to paly it, but i'm not really good at writing tabs, sorry

about the other song, i don't really like it so i never took the time to learn how to play it, i hardly even listen to it
Back to top Go down
Sponsored content




PostSubject: Re: Iggy Pop/The Stooges Tab and Lyric Request Thread   

Back to top Go down
 
Iggy Pop/The Stooges Tab and Lyric Request Thread
View previous topic View next topic Back to top 
Page 11 of 12Go to page : Previous  1, 2, 3 ... , 10, 11, 12  Next
 Similar topics
-
» Prayer request!!
» Darkwater - New Album Update
» Metal, Rock & Industrial Challenge #3: The Playlist
» New HB ~ Pääkallonpaikka
» Dynasty-Motus Perpetuus

Permissions in this forum:You cannot reply to topics in this forum
Stooges Forum :: Stooges Main. :: Jesus Loves the Stooges.-
Jump to: