Stooges Forum

Welcome to the Fun House
 
HomeHome  FAQFAQ  RegisterRegister  Log in  

Share | 
 

 Iggy Pop/The Stooges Tab and Lyric Request Thread

View previous topic View next topic Go down 
Go to page : Previous  1, 2, 3 ... 10, 11, 12
AuthorMessage
imastooge69



Number of posts : 43
Age : 19
Registration date : 2011-10-30

PostSubject: Re: Iggy Pop/The Stooges Tab and Lyric Request Thread   Thu Aug 02, 2012 12:29 pm

rabid_fish wrote:
imastooge69 wrote:
rabid_fish wrote:
i play bass... which do you wanna know? i know more or less all bass lines from "the stooges" and "funhouse". they're very easy, perfect for a begginer!
Do you know the bassline to 1970? Also, I got to ask, do you know the bass line to Turn Blue, as i have difficulty finding a site that has it....

it's E then G... you can play like this:

G-------------------------
D-----5-5--5--5------5-5
A----7----7--7---7-7----
E-------------------------

or


E---0-3-3--0--3--0--3--0-0-3-3 if you want it an 8ve lower

the "all night... til i blow away" would be C, D and the riff X2 then E, D-C-D then B,C,D and then B,C,E... it's something like this: ( I don't do the other strings 'cos you don't really use them)


A-3-3-3-3-3-3--5-5-5-5-5-5 then Riff X2

the "bridge" (?)

A-7--5-3-5--2-3-5--2-3-- Then riff again...

then the end with the sax solo it's 2-3-7-7-7-7-7 till the end. in the guitar solo there's a part where the bass plays a D, but i'm not exactly sure where.

Hope that works for you, i know how to paly it, but i'm not really good at writing tabs, sorry

about the other song, i don't really like it so i never took the time to learn how to play it, i hardly even listen to it

Thanks! Also, do you happen to know Kill City, Sister Midnight, or China Girl on bass?
Back to top Go down
imastooge69



Number of posts : 43
Age : 19
Registration date : 2011-10-30

PostSubject: Sister Midnight Bass Tab   Thu Aug 02, 2012 12:40 pm

First, play this:
G|-----------------|-----------------|
D|-----------------|-----------------|
A|-----------------|-----------------|
E|-3~--------------|-5~--------------|


Then the rest of the song goes like this:
G|-----------------|---------2-4-----|
D|-----------------|-------------3-5-|
A|-----------------|-----------------|
E|-3---331-3-------|-3---331---------|


Sometimes you skip that little fill and just play this:
G|-----------------|-----------------|
D|-----------------|-----------------|
A|-----------------|-----------------|
E|-3---331-3-------|-3---331-3-------|

And that's pretty much it.
Back to top Go down
dr_



Number of posts : 10
Registration date : 2012-03-03

PostSubject: Re: Iggy Pop/The Stooges Tab and Lyric Request Thread   Fri Aug 10, 2012 6:16 pm

Is anybody have tabs for "My Baby Wants To Rock & Roll"?
Back to top Go down
imastooge69



Number of posts : 43
Age : 19
Registration date : 2011-10-30

PostSubject: Re: Iggy Pop/The Stooges Tab and Lyric Request Thread   Sun Aug 19, 2012 2:35 am

Does anybody have bass tabs for these songs:

Johanna
Ann
Till the End of the Night
China Girl
and Open Up and Bleed?
Back to top Go down
Zuntir



Number of posts : 1
Registration date : 2012-11-03

PostSubject: Re: Iggy Pop/The Stooges Tab and Lyric Request Thread   Sat Nov 03, 2012 4:18 am

Hey, does anyone have bass tab for Down on the Street? Smile
Back to top Go down
rds



Number of posts : 3
Registration date : 2012-11-19

PostSubject: Re: Iggy Pop/The Stooges Tab and Lyric Request Thread   Mon Nov 19, 2012 6:04 pm

Hello,

I am looking for lyrics for these songs: Mexican Guy, She Took My Money, Passing Clouds..

--

Mexican Guy: What is he singing at the beginning?

Lookiní to my feft I see [???] .
Lookiní to my right see [???] like a square.

--

She Took My Money: This is what I got so far.. Please correct me if I made mistakes.. I am german, that's why I can't understand all of his mumbling..


Well I never felt for [???]
or a pussy with disease.
I never spent time in a uniform.
I never loved the human being.
I thought I never see defeat,
then I saw her walkin' down the street.

She took my money.
She took my money.
She took my money.
She took my money.
She took my money and she didnít say thank you, no.
She took all my money and immediately banked it.
Ooh, my mind.

I got to [???] goodbye.
Now she owes a diamond mind. <- correct?
she said [???] parents time.
I'm livin' in a friends backyard,
starvin' like a lonesome [???]
The moral of the story is: you can beat the system, but you can't beat the [???]

She took my money.
She took my money.
She took my money.
She took my money.
She took all my money.
And she didnít say thank you.
She took my money and immediately banked it.
Ooh, my mind.

She took all my money.
She took my money.
She took my money.
She took my money.
She took my money.
Alright.

I gotta, I gotta, I gotta protect? my money. I gotta, I gotta, I gotta protect? my money.
I gotta, I gotta, I gotta protect? my money. I gotta, I gotta, I gotta protect? my money.
I gotta, I gotta, I gotta.

She took all my money, baby, baby, baby, baby.
She took all my money, baby, baby, baby, baby.
She took all my money, baby, baby, baby, baby.

She took my money.
She took my money.
She took my money.
She took my money.

---

Can't understand a word at all in Passing Clouds
Back to top Go down
rds



Number of posts : 3
Registration date : 2012-11-19

PostSubject: Re: Iggy Pop/The Stooges Tab and Lyric Request Thread   Mon Nov 26, 2012 3:40 pm

Can anyone help me out on these 3 lyrics?
Back to top Go down
woody

avatar

Number of posts : 640
Registration date : 2011-02-07

PostSubject: Re: Iggy Pop/The Stooges Tab and Lyric Request Thread   Wed Nov 28, 2012 12:04 am

No idea what he's singing in those first Mexican Guy lines...

'Lookiní to my left I see a vege-nite man [???]
And I'm lookiní to my right I see a super-sizal square' [?!?]

Maybe it's some kind of brand-names, or variations thereof? A 'vege-nite' man might be a nocturnal Australian with a fondness for yeast extract.
Maybe an in-joke? Maybe a load of nonsense? ...?!??

--

She Took My Money:


Well I never fell for power tricks?/polities? [???]
Or the pussy with disease.
I never spent time in a uniform.
I never loved the human being.
I thought I never see defeat,
Then I saw her walkin' down the street.

She took my money.
She took my money.
She took my money.
She took my money.
She took my money and she didnít say thank you, no!
She took all my money and immediately banked it.
Ooh, my my...

I got to testify.

Now she owns a diamond mine.
She sets her watch on Paris time.
I'm livin' in a friend's backyard,
Starvin' like an unsung bard.
The moral of the story is:
you can beat the system,
but you can't beat the Ms.

She took my money.
She took my money.
She took my money.
She took my money.
She took all my money.
And she didnít say thank you.
She took my money and immediately banked it.
Ooh, my my.

She took all my money.
She took my money.
She took my money.
She took my money.
She took my money.
Alright.

I gotta, I gotta, I gotta protect my money. I gotta, I gotta, I gotta protect my money.
I gotta, I gotta, I gotta protect my money. I gotta, I gotta, I gotta protect my money.
I gotta, I gotta, I gotta.

She took all my money, baby, baby, baby, baby.
She took all my money, baby, baby, baby, baby.
She took all my money, baby, baby, baby, baby.

She took my money.
She took my money.
She took my money.
She took my money.

---

Passing Clouds:


No light in my window,
No way through my steely door.
My mind should be open,
But it's more closed than before.

The kindness of strangers,
Is a grand and empty thing,
The presence of danger,
Side it back up to see gain. [?]

But time will be healing me,
Yes time will be healing me.

I saw it in a passing cloud,
I saw it in a passing cloud.

Life's tough in the city,
And it's dead every other place.
The moment of pity
Is a hard dent [?] to erase.

One thing tore me open,
Wanting more just tore it down.
It ain't just the doping,
It's the whole merry-go-round.

No light at my window.
No light at my window.

The time will be healing me
Yes time will be healing me.

I saw it in a passing cloud
I saw it in a passing cloud
I saw it in a passing cloud
I saw it in a passing cloud
I saw it in a passing cloud
I saw it in a passing cloud
I saw it in a passing cloud
I saw it in a passing cloud

Cause time will be healing me
Time will be healing me

I saw it in a passing cloud
I saw it in a passing cloud

--

Hope this helps a bit, rds.
W















Back to top Go down
rds



Number of posts : 3
Registration date : 2012-11-19

PostSubject: Re: Iggy Pop/The Stooges Tab and Lyric Request Thread   Wed Nov 28, 2012 12:16 am

Thanks for your help woody, this helps a lot! I really appreciate that.

"... a nocturnal Australian with a fondness for yeast extract"

that made my day Very Happy
Back to top Go down
rawhide8



Number of posts : 1
Registration date : 2010-04-14

PostSubject: Re: Iggy Pop/The Stooges Tab and Lyric Request Thread   Fri Nov 30, 2012 11:22 pm

She Took My Money: Isn't he singing "power TITTIES"??

Passing Cloud: "The presence of danger, SIDE EFFECT OF TRUTH SEEKING" , "hard TEAR to erase"(?)"WANTING tore me open, wanting more just tore it down"(?)

Mexican Guy: yeah...I've been wondering about that one myself: " looking to my left I see a --- nightmare and looking to my right i see a super(?)---square, I took a look below I saw a fat king kong, took a look above but --- --- don't belong(?), do the crime and pay a fine and maybe take a dive, started out on mariuana, ended up on red wine, gotta fuck her every day just to feel alive, sentimental ---(interrail?? in the rental??) fallen by the wayside.


Speaking of Weirdness lyrics: I'm Fried, a few lines I've never been able to make out: "...and that is the ---(size?) and ---(???) of it"(?) . " Hey Baby , I don't wanna pay, can I come back(?) -- --- ---"??? " my work is my wife(?) so --- ---??

Not a lot of people seem to agree with me on this, but I think this album is really underrated. Ok, the production/mixing sounds a bit odd here and there, and obviously it was never gonna be as good as the 60s/70s albums, but the songs are a whole lot better, in my opinion, than what people said when it came out.
Back to top Go down
Arcadyrose

avatar

Number of posts : 1
Age : 25
Location : Russia,SPB
Registration date : 2013-01-07

PostSubject: Re: Iggy Pop/The Stooges Tab and Lyric Request Thread   Thu Jan 10, 2013 12:35 am

Oh,can i get gimme danger tab end of the night or maybe joahnna full?Ilbe pleased so much)my english so beutiful as ginsburg ass

& i really be good boy if you send some mc5 tabs)
Back to top Go down
http://vk.com/arcadyrose
dr_



Number of posts : 10
Registration date : 2012-03-03

PostSubject: Re: Iggy Pop/The Stooges Tab and Lyric Request Thread   Mon Jan 14, 2013 5:19 pm

Gimme Danger.
Tune is one step down in Raw Power album.

Intro:
e---------------------------------------------------------------------------
B----7-----5-------3------------------------------------------------------------
G--9--9-9--7-7---5--5-5--2-2-(0)----------------------------------------------------------
D--9----9--7-7---5----5--2-2-(0)---------------------------------------------------------
A--7----7--5-5---3----3--0-0-(0)---------------------------------------------------------
E-------7----5--------3----------------------------------------------------------

Main riff:
e---------------------------------------------------------------------------
B----------------------0-----------------------------------------------------
G---------------------0------------------------------------------------------
D--2--4--2---2---0---2------------------------------------------------------------
A--2--x--x---x--0-0-3--------------------------------------------------------------
E--0--0--0---0-0-----------------------------------------------------------------

Chorus:
e---------------------------------------------------------------------------
B----5-----5--------7----7--------3---3-------0---0----------------------------------
G--7---7--7-7-7---9--9--9-9-9---5--5-5-5-5--2--2-2-2-------------------------------------------
D--7----7-----7---9---9-----9---5---5----5--2---2---2-----------------------------------
A--5----------5---7---------7---3--------3--0--------------------------------------
E-------------5-------------7------------3-------------------------------------

e---------------------------------------------------------------------------
B----5-----7-----3--------------------------------------------------------------
G--7--7-7--9-9--5-5-5--2-2-(0)-------------------------------------------------------------
D--7----7--9-9--5---5--2-2-(0)-----------------------------------------------------------
A--5----5--7-7--3---3--0-0-(0)-----------------------------------------------------------
E-------5----7------3-----------------------------------------------------------

or just play D - Em - C - A chords


"Find a little stranger..." (or some other words I not sure about lyric)
Em - G - D
At the end of part: D - Em

Outro:

Like a chorus, but play this figure on 7 - 5 - 3 - 0 frets
or play Em - D - C - A

See this http://www.youtube.com/watch?v=77Vh_uvj9mg

P.S. Sorry for my English if I did make some mistake. Smile

P.P.S Shit! This tab displayed not correct. I upload .txt file :

http://www.datafilehost.com/download-a0f82cb4.html
Back to top Go down
dr_



Number of posts : 10
Registration date : 2012-03-03

PostSubject: Re: Iggy Pop/The Stooges Tab and Lyric Request Thread   Sat May 04, 2013 8:04 am

Hey, wake up!
I'm ill right now... So... I have some time to make some tabs. Smile

Iggy Pop - Dead Rock Star
Album: Skull Ring
Tuning - Standart.

Intro (you can use wah-wah):
e---------------------------------------------------------------------------
B----------------------------------------------------------------------------
G-----5-5-5-5---4-4-4-4---3-3-3-3---2-2-2-2------------------------ X4
D-----0-0-0-0---0-0-0-0---0-0-0-0---0-0-0-0-------------------------
A---------------------------------------------------------------------
E-----------------------------------------------------------------------------

Next part/Chorus (play power chords):

E - F# - G E - G - F# X4
A - G - F# X4

Verse:
e---------------------------------------------------------------------------
B----------------------------------------------------------------------------
G------------------5----------------------7--7--7--7--7--7---------------------------
D-----2-2-2-2--2--2-2-2----4-4----4----4--4--4--4--4----------------------------- X4
A-----3-3-3-3-3---3-3-3----5-5--5----------5--5--5--5----------------------------
E-----------------------------------------------------------------------------
PM...............___PM.................

C5 - D5 X2

End (play power chords):

A - G - F#

In the final just make some noise in Ron Asheton's style if you can. Smile
Back to top Go down
woody

avatar

Number of posts : 640
Registration date : 2011-02-07

PostSubject: Re: Iggy Pop/The Stooges Tab and Lyric Request Thread   Sat May 04, 2013 2:11 pm

"make some noise in Ron Asheton's style if you can"

???!!?

I WISH! Laughing

Get well soon.
Back to top Go down
turnblue69

avatar

Number of posts : 23
Registration date : 2013-04-06

PostSubject: Re: Iggy Pop/The Stooges Tab and Lyric Request Thread   Fri May 10, 2013 11:49 pm

hey guys i f anyone has guitar tabs for WILD LOVE, OPEN UP AND BLEED and PINPOINT EYES, you would be saving my life! i gotta learn these 3 in particular cus my band is covering them but trying to learn by ear from the more power versions is a bitch cus they are so under produced i can't make all of it out. if any body has these PLEASE post them, thanks! - Azra
Back to top Go down
rock fan



Number of posts : 5
Registration date : 2013-05-06

PostSubject: Re: Iggy Pop/The Stooges Tab and Lyric Request Thread   Thu Mar 12, 2015 5:30 pm

Wake Up!

There is some tabs. Standard tuning.


Iggy Pop - Heart is Saved

Main Riff: D, A, E

Little Solo:
e-----------------------------------------------------------------|
B-------------------------------------------------------------------
G----b7--5---------------------------------------------------------
D------------7---5--------------------------------------------------|
A----------------------7-------------------------------------------|
E-----------------------------------------------------------------|



"Tells me my bucks ain't enough..." parts:

D † † † † † † † A † † † † † † † † † †E
Tells me my bucks ain't enough
D † † † † † † † †† A † † † † † † † † † †E
And life doesn't have to be rough

† † † † D † † † † † † A
But a little white cloud
† † † † † † D † † † † A
Tells me what I crave
† † † † † †D † † † †A
And the way I feel
† † † † † † † E † † † † †D
Means my heart is saved
† † † † † †D † † † † † † † A
And the money goes 'round
† † † † † †D † † † † † †A
And the babes are babes
† † † † † †D † † † A
And the way I feel
† † † † † † ††E † † † † †A
Means my heart is saved


"I'm weird" part:
D † † † † † † † † † † † E
I'm weird and half-dead
A † † † † † † † † † † † † † † †D
There's a fortune in my head
D
Don't touch me
E
My heart is saved

End:
† † † † † † † E † † † † †A - A - E
Means my heart is saved


Iggy Pop - I wanna Live

Main Riff/Verse:
A#/G#/A# - C#/B/C# - G#/F#/G# - A#/G#/A#
e-------------------------------------------------------------------------------------------|
B-------------------------------------------------------------------------------------------
G-------------------------------------------------------------------------------------------
D---8--- 6-----8----------11--- 9-----11---------6----4-----6-----------8--- 6----8----|
A---8--- 6-----8----------11--- 9-----11---------6----4-----6-----------8--- 6----8----|
E---6---(6)----6---------- 9---(9)---- 9------ ---4---(4)----4-----------6---(6)---6----|

Chorus:
A#/G#/A# - C#/B/C# - G#/F#/G# - D#-D#-C#-D#
e-------------------------------------------------------------------------------------------|
B-------------------------------------------------------------------------------------------
G--------------------------------------------------------------------------8--8--6--8-----
D---8--- 6-----8----------11--- 9-----11---------6----4-----6- ------8--8--6--8-------|
A---8--- 6-----8----------11--- 9-----11---------6----4-----6--------6--6--4--6-------|
E---6---(6)----6---------- 9---(9)---- 9------ ---4---(4)----4---------------------|

G# † † † † † †C# † A#
Step up it's fight time
G# † † † † † † † † † C# † A#
Kick scratch and bite time
G# † † † † † † † † † † C# † † †A#
Ain't talking about no more fun
G#
But that don't bother my bad ass none

Solo:

e----------------------------------------------------------------------------------------------------|
B---------------------------------------------------------------------------------------------------
G----------------------------------------------------------------------------------------------------
D----------------------------------------------------------------------------------------------------|
A------------------------------------------------------------8---------------------------------------|
E------6-6-6--8--6-------6--8----8--8----6------6-6-6-----6------6--8--8-8-8--8--6---------|

Play A#-A#-G#-A# at the end of song.



Sorry for my English. I'm from Russia.
Hello word!
Rock'nRoll!
Back to top Go down
rock fan



Number of posts : 5
Registration date : 2013-05-06

PostSubject: Re: Iggy Pop/The Stooges Tab and Lyric Request Thread   Thu Mar 12, 2015 7:49 pm

-------------------------------------------------------------------------------
† † Little Know It All - Iggy Pop
-------------------------------------------------------------------------------
Tabbed by: l7ds
E-mail: -

Tuning: standard

Note: I think in original record a tuning is half-step down (Eb Ab Db Gb Bb eb).
The most songs that I play in standard tuning. So, I don't want retune my guitar for one song and I play it in standard.

Verse:
e|----------------------------- † † † † † † † †
B|-----------------------------
G|------------------6---------
D|-3-3---1 -3- 1----6---6---
A|-3-3---1 -3- 1----4---6-----
E|-1-1--(1)-1-(1)-------4------ †3x - times



e|----------------------
B|---------------------|
G|---8-------------------
D|---8---6--8--------------
A|---6---6--8--------------
E|-------4--6--------------

e|---------------------------------------------------------------------------|
B|---------------------------------------------------------------------------|
G|---10--10--8-10-8---10---8---------10-10--8-10-8--- -13----12--------|
D|---------------------------------------------------------------------------|
A|---8---8---6-8--6---8----6---------8--8---6-8--6-----11----10--------|
E|---------------------------------------------------------------------------|

e|---------------------------------------------------------------------------|
B|---------------------------------------------------------------------------|
G|-10--10---8-10-8---10--8----8-8-8---------------------------|
D|----------------------------8-8-8---6---8--------------|
A|--8---8---6--8-6----8--6----6-6-6---6---8-------------|
E|------------------------------------4---6-----|

Pre-Chorus:
e|-----------------------------------------------
B|-------------------------------br8-\-(4)-------
G|---------6--------------8----8-----------------
D|--3------6-------6------8----------------------
A|--3------4-------6------6----------------------
E|--1--------------4----------------------------- 2x - times

Chorus 1:
e|---------------------------------------------------------------------------|
B|---------------------------------------------------------------------------|
G|--6----------8-----10------------6---- ----8-----5---------------|
D|--6----6-----8-----10------------6----6----8-----5--------------------|
A|--4----6-----6-----8-------------4----6----6-----3---------------------|
E|-------4------------------------------4-------------------------------|

Solo 1:
e|------------------------------------------------------------|
B|--------9--------------------------------------------------------|
G|-----10---10---8--------10-10-10---8-8----------------------|
D|-------------------10--------------- †-----8p6-------------|
A|-------------------------------------- †-------8---------------|
E|-----------------------------------------------------------------|

e|-----------------------------------------------------------------|
B|------9-------------9--9-9---8--8-8--------------------------------|
G|---10---10--8-------8--8-8---8--8-8----8---10----------------------|
D|--------------10--------------------------------------------------|
A|--------------------------------------------------------------------|
E|-------------------------------------------------------------------|

Chorus 2:
e|------------------------------
B|-------------------------------
G|--10----6-----------8----------
D|--10----6-----6-----8----------
A|--8-----4-----6-----6----------
E|--------------4------------------ 2x - times
Solo 2:
e|---------------------------------------------------------------------------|
B|----6---6---6----------------------------------------------------------|
G|---b8--b8--b8--8--5-----5---5--5--5-------------------------------|
D|-----------------------b8--b8-b8-b8---8p6----8p6------------------|
A|--------------------- --------------------8p6-----8p6--------------|
E|---------------------------------------------------------------------------|

e|--------------------------------------7p5-----7-------------------|
B|----6---6---6----------b7--b7-b7-b6-------7p5------------------|
G|---b8--b8--b8--8--5-------------------------------------------|
D|----------------------------------------------------------------|
A|----------------------------------------------------------------------|
E|-----------------------------------------------------------------|

e|----------------------b6---11-----11----------13-------------------- --b11--b11-b11-b11-|
B|----6---6---6-----------------13-----13--------------- †---11--13-11-------------------|
G|---b8--b8--b8--8--5---------------------12--------12--13--- --------13---------|
D|---------------------------------------- †---10---------------------------------------|
A|--------------------------------------------------------------------------------------|
E|------------------------------------------------------------------------------------|

e|--8----6-----4--------8------6---------------------------------------------|
B|---------------------------------------------------------------------------|
G|---------------------------------------------------------------------------|
D|---------------------------------------------------------------------------|
A|---------------------------------------------------------------------------|
E|---------------------------------------------------------------------------|


End:
e|---------------------------------------------------------------------------|
B|---------------------------------------------------------------------------|
G|---6-------8----------------------------8--10-----------------------------------|
D|---6---6---8------6--6---3-/-8--8-8-----8--10----------------------------|
A|---4---6---6------6--6---3-/-8--8-8-----6--8--------------------------------------------|
E|---- --4----------4--4---1-/-6--6-6-------------------------------------------------|

************************************

| / † slide up
| \ † slide down
| h † hammer-on
| p † pull-off
| ~ † vibrato
| + † harmonic
| x † Mute note
| b † Bend
| pb †Pre-bend
| br †Bend release
| pbr Pre-bend release
| brb Bend release bend

************************************


Last edited by rock fan on Thu Mar 12, 2015 9:19 pm; edited 9 times in total
Back to top Go down
rock fan



Number of posts : 5
Registration date : 2013-05-06

PostSubject: Re: Iggy Pop/The Stooges Tab and Lyric Request Thread   Thu Mar 12, 2015 7:56 pm

I don't know why, but my tabs is not copy correct. I can't spend all evening to correct it. Sorry, guess you understand.
Maybe, somebody can help me?

Done it! Change front name. Smile
Back to top Go down
rock fan



Number of posts : 5
Registration date : 2013-05-06

PostSubject: Re: Iggy Pop/The Stooges Tab and Lyric Request Thread   Mon Mar 16, 2015 7:03 pm

-------------------------------------------------------------------------------
† † Breaks My Heart - New Race (Radio Birdman)
-------------------------------------------------------------------------------

Tuning: Standard

Main Riff:
e|----------------------------------------------------------------------|
B|-----------------------------------------------------------------------|
G|-------------7--7----------------7--7-7--------7--7-7---------------|
D|--7--7--7-7--7--7--7--7-7--4--4--7--7-7--4--4--7--7-7------------------|
A|--7--7--7-7--5--5--7--7-7--4--4--5--5-5--4--4--5--5-5--------------|
E|--5--5--5-5--------5--5-5--2--2----------2--2-----------------------------|

Chorus:
e|---------------------------------------------------------------------------|
B|---------------------------------------------------------------------------|
G|---------------9----11---7----5--5---7--7-------------5---9-----------
D|--7--7--7-7-7--9----11---7----5--5---7--7--7--7-------5---9-----------|
A|--7--7--7-7-7--7----9----5----3--3---5--5--7--7-------3---7-------------|
E|--5--5--5-5-5------------------------------5--5----------------------------|

End
e|----------------------------|
B|----------------------------|
G|---5-----7------------------|
D|---5-----7-----7------------|
A|---3-----5-----7------------|
E|---------------5------------| †repeat

Try to create some solo parts...
Back to top Go down
The Forgotten Boy

avatar

Number of posts : 1
Age : 19
Location : Heerenveen
Registration date : 2015-05-01

PostSubject: Re: Iggy Pop/The Stooges Tab and Lyric Request Thread   Fri May 01, 2015 8:08 pm

Anyone knows the right tabs (for guitar) AND lyrics of Death Trip?
The lyrics are painfully wrong on the web Neutral

Back to top Go down
rock fan



Number of posts : 5
Registration date : 2013-05-06

PostSubject: Re: Iggy Pop/The Stooges Tab and Lyric Request Thread   Fri Jul 24, 2015 9:45 pm

The Forgotten Boy wrote:
Anyone knows the right tabs (for guitar) AND lyrics of Death Trip?
The lyrics are painfully wrong on the web Neutral


Intro/End:

e|5------------4----5---4--4--4--4---5----5------------4---5--4--4---2--2--0----|
B|5------------5----5---5--5--5--5---5----5------------5---5--5--5---3--3--0---|
G|----6--6--6----------------------------------6--6--6----------------------------2|
D|--------------------------------------------------------------------------------2|
A|--------------------------------------------------------------------------------0|
E|-----------------------------------------------------------------------------------|

Main riff:

e|--------------------------------------------------------|
B|---------3-------------3--------3------3------------------|
G|-2---2---4----2--2--2--4----2---4---2--4--2---------|
D|-2---2---2----2--2--2--2----2---2---2--2--2---------|
A|-0---0--(0)---0--0--0-(0)---0--(0)--0-(0)-0----------|
E|---------------------------------------------------------|

e|--------------------------------------------------|
B|--------------------------------------------------|
G|----------------5-------------------------------|
D|----5--5--5--5--5--5--------------------------|
A|----5--5--5--5--3--5--------------------------|
E|----3--3--3--3-----3--------------------------- 2 times
pm...............
Back to top Go down
Sponsored content




PostSubject: Re: Iggy Pop/The Stooges Tab and Lyric Request Thread   

Back to top Go down
 
Iggy Pop/The Stooges Tab and Lyric Request Thread
View previous topic View next topic Back to top 
Page 12 of 12Go to page : Previous  1, 2, 3 ... 10, 11, 12
 Similar topics
-
» Iggy Pop/The Stooges Tab and Lyric Request Thread
» Iggy & The Stooges footage 1973 (Ivan Kral)
» Iggy and the Stooges will play Brazil Nov 7 2009
» Iggy and the Stooges "More Power" Cd
» Iggy and The Stooges @ Greece

Permissions in this forum:You cannot reply to topics in this forum
Stooges Forum :: Stooges Main. :: Jesus Loves the Stooges.-
Jump to: